Globedia.com

×
×

Error de autenticación

Ha habido un problema a la hora de conectarse a la red social. Por favor intentalo de nuevo

Si el problema persiste, nos lo puedes decir AQUÍ

×
cross

Suscribete para recibir las noticias más relevantes

×
Recibir alertas

¿Quieres recibir una notificación por email cada vez que Broken Fingers escriba una noticia?

Voodoo Child – Jimi Hendrix

20/09/2011 20:00 0 Comentarios Lectura: ( palabras)

imageTema: Voodoo ChildBanda: Jimi Hendrix Álbum: Electric Ladyland Publicación: 1968 (álbum), 1970 (simple) Grabación: Mayo de 1968 Género: Rock ácido, Rock Psicodélico, Blues rock, Hard rock Duración: 5:12 Discográfica: Track Records Escritor(es): Jimi Hendrix Productor(es): Jimi Hendrix

" V oodoo Child (Slight Return)" es una canción del trío The Jimi Hendrix Experience, publicada en 1968. Es la última del álbum Electric Ladyland. Esta canción es popular por el sonido de la guitarra cargada de efectos wah-wah, con acordes mudos combinados con riffs y solos explosivos. La canción está influenciada por la composición de "Rollin Stone", de Muddy Waters.

La revista Rolling Stone la coloco en el puesto n.º 101 en su «lista de 500 más grandes canciones de todos los tiempos».

Es uno de los temas más característicos y conocidos de la carrera musical de Jimi Hendrix, por el virtuosismo con que se expresa y por un sonido heavy —lo más "pesado" tocado hasta ese entonces—.

Fue catalogado como "Voodoo Chile", y que es el título que aparece en el sencillo y es el título a que se refiere oficialmente. Esto, evidentemente, se confunde con la canción de 15 minutos "Voodoo chile" en el álbum Electric Ladyland. El lado B del sencillo figura entre dos de sus anteriores éxitos: "Hey Joe" y "All Along The Watchtower".

Esta canción fue grabada por numerosos artistas, entre ellos Stevie Ray Vaughan para su álbum Couldn't Stand the Weather, de 1984.

Voodoo Child es también el título de la biografía de Jimi Hendrix ilustrada por Bill Sienkiewicz.

Estos son los riffs del tema...

|-----------------------------------------|

|-----------------------------------x-x-x-|

|-/9-7---7-------------/9-7---9-9-7-x-x-x-|

|------9---5-5-7-5----------9-------x-x-x-|

|------------------7----------------x-x-x-|

|-----------------------------------------|

|------------------------------|

|------------------------------|

|/9-7---7----------/9-7--9-9---|

|-----9---5-5-7-5------9-------|

|-----------------7------------|

|----------------------------0-|

|-----------------------------------------|

|-----------------------------------x-x-x-|

|-/9-7---7-------------/9-7---9-9-7-x-x-x-|

|------9---5-5-7-5----------9-------x-x-x-|

|------------------7----------------x-x-x-|

|-----------------------------------------|

|-----------------------------|

|-----------------------------|

|/9-7---7----------/9-7--7----|

|-----9---5-5-7-5------9------|

|-----------------7-----------|

|-----------------------------|

Em

|------------------------------------------|

|------------------------------------------|

|-----------0-2b3b2p0----------------------|

|-2-2--2--2-----------2-2-2-2-2--2-0h2p0h2-|

|-2-2--2--2-----------2-2-2-2-2------------|

|-0-0--3--------------0-0-0-3-0------------|

|---------------------------------|

|-12----12---12----12-------------|

|-14b16(hold)14b16----12~~--------|

|--------------------------2-2-2-2|

|--------------------------2-2-2-2|

|--------------------------0-0-3-0|

|------------------------------------------------------|

|-15b17--15b17--15-12----------------------------------|

|---------------------14-12--14b16b14-12---------------|

|----------------------------------------14-12-12h14---|

|------------------------------------------------------|

|------------------------------------------------------|

|-------------------------------------------------------|

|-------------------------------------------------------|

|-------0-----------------------------------------------|

|---0-2---2p0----0-h2-------------0---0h2-0---0h2p0-----|

|-2-----------h2----------------2---2-------2-----------|

|-----------------------0-3-0-----------------------3-0-|

I stand up next to a mountain ....

|---------------------------------------------------------|

|-----0---------------------------------------------------|

|---0-----0h2-2-0-0h2p0-----------------------------------|

|-2-----2---------------2-----------0---0h2-0---0h2p0-----|

|---------------------------------2---2-------2-----------|

|-------------------------0-3-0-----------------------3-0-|

I stand up next to a mountain (second time) ...

|---------------------------------|

|---------------------------------|

|-4-4-4-4-4-4-4-4-2-2-2-2-2-2-2-2-|

|-0-0-0-0-0-0-0-0-0-0-0-0-0-0-0-0-|

|-5-5-5-5-5-5-5-5-4-4-4-4-4-4-4-4-|

|---------------------------------|

I pick up all the pieces and make an island ...

|---------------------------------|

|---------------------------------|

|-3-3-3-3-3-3-3-3-5-5-5-5-5-5-5-5-|

|-2-2-2-2-2-2-2-2-4-4-4-4-4-4-4-4-|

|-3-3-3-3-3-3-3-3-5-5-5-5-5-5-5-5-|

|---------------------------------|

Cos i'm a voodoo chile ...


Sobre esta noticia

Autor:
Broken Fingers (248 noticias)
Fuente:
miguitarrablusera.blogspot.com
Visitas:
846
Tipo:
Reportaje
Licencia:
Distribución gratuita
¿Problemas con esta noticia?
×
Denunciar esta noticia por

Denunciar

Etiquetas
Lugares

Comentarios

Aún no hay comentarios en esta noticia.